[KH] Say Goodbye tab

Written by [email protected] (Emily Arkin) on Mon, 22 Apr 1996 14:48:27 -0400.
Here's some more tab for all you guitar players.
--Emily

Say Goodbye (very short hunkpapa version)
by Kristin Hersh


 E      E7

-0-------0---0----
-0-------3----3---
-1-------1-----1--
-2-------2--------
-2-------2--------
-0-------0--------

Say Good-Bye


-0-
-0-
-2-      x 11 (rhythm = _ ._ .._ _ .....)
-3-
-3-
-0-

Kick her legs, kick her dow-ow-own


 E        E7

-0--4-0---0----
-0------0-3----
-1--------1----
-2--------2----
-2--------2----
-0--------0----

Back to the top