muses tab: The Burrow

Written by [email protected] (Edmond Hum) on Wed, 9 Nov 94 02:46 WET.
the burrow

by kristin hersh
from 'hunkpapa'
transcribed by edmond hum ([email protected])

--- start ---



< tune down 6th string (low E) to D >

part #1
 e-------------------------------------------------------
 b-------------------------------------------------------
 g-------------------------------------------------------
 d--0--0-0-0-0--2-3-2-0--------0-0-2-0-------------------
 a-------------------------0-2---------2-----------------
*d-----------------------0-------------------------------


part #2
 e-------------------------------------------------------
 b-------------------------------------------------------
 g-----------------------2-0-----------0-----------------
 d--0--0-0-0-0--2-3-2-0------2-0---0-2-------------------
 a-------------------------------2-----------------------
*d-------------------------------------------------------


part #3
 e-------------------------------------------------------
 b-------------------------------------------------------
 g--0--0-0-0-0--2-3-2-0----------0-2-0-------------------
 d---------------------------0-2-------2-----------------
 a-------------------------2-----------------------------
*d-----------------------5-------------------------------


part #4
 e-------------------------------------------------------
 b-------------------------------------------------------
 g-------------------------------------------------------
 d--0--0-0-0-0--2-3-2-0--2-0-----------0-----------------
 a---------------------------2-0---0-2-------------------
*d-------------------------------0-----------------------


D
your big face
                   Em7
is such a shrine
                      A
it tastes like water

but i'm drunk





D
your big face
                 Em7
is such a crime
                      A
it tastes like water

but i'm drunk




--- end ---

Back to the top